Vloggest Entertainment

Watch all your favorite videostars!
  • Share this video
  • facebook
  • Google+
  • Twitter
  • submit to reddit Reddit

CREAM - SUNSHINE OF YOUR LOVE - How to Play - Free O...

Guitar Lessons BobbyCrispy Follow
  • Video description
  • 14 years ago
  • 309,167 views
  • 741 likes
  • 161 comments
♫Learn 100 Popular Rock Riffs Guitar Lesson: https://youtu.be/EJSz2QxB5oo

**TABS FOR THIS LESSON: http://jpst.it/Ag-b
Free guitar lessons http://www.bobsguitarlessons.yolasite.com
E------------------------------------------------------------
B------------------------------------------------------------
G------------------------------------------------------------
D----12--12--10--12------------------------------------
A--------------------------12--11--10---------8---------
E--------------------------------------------10------10---

E------------------------------------------------------------------
B------------------------------------------------------------------
G---11--11--9---11---------------------11---10(V)---12--
D---12--12--10--12---------------------12-------------------
A-------------------------12--11--10---------------------------
E------------------------------------------------------------------

E------------------------------------------------------------
A---12--12--10--12-------------------------------------
G---12--12--10--12-------------------------------------
D--------------------------12--11--10--------8----------
A-------------------------------------------10------10----
E------------------------------------------------------------

E----------
B----------
G---------
D---7-----
A---7-----
E---5-----

E---------
B---------
D---5----
G---5----
A---3----
E---------

E----------
B----------
G---------
D---5-----
A---5-----
E---3-----
Vlogger of the day:

Smosh

Smosh is an American web-based comedy duo founded by Ian Andrew Hecox (born November 30, 1987) and Anthony Padilla (born Daniel Anthony Padilla (September 16, 1987). Padilla and Hecox formed a duo ...

read more

  • Comments
  • Related videos