Vloggest Entertainment

Watch all your favorite videostars!
  • Share this video
  • facebook
  • Google+
  • Twitter
  • submit to reddit Reddit
  • Tags
  • Show tags

STAIRWAY TO HEAVEN Intro Flute/Keyboard ( Guitar Les...

Guitar Lessons BobbyCrispy Follow
  • Video description
  • 13 years ago
  • 49,894 views
  • 116 likes
  • 24 comments
Over 170 guitar lesson videos on my Youtube Channel called "BobbyCrispy. Metallica, Led Zeppelin,Beatles, Nirvana, Ozzy and more!
E--0--0--0--2--0----3--5--5
B--1--1--1--3--1-------------
G--2--1--0--2--2------------
D-------------4--3----5--7--7
A-------------------------------
E-------------------------------

E--0--2--5--3--1--0----3--3--3---3-2-----2
B--1--3--6--5--3--1----3--5--3---3--------3
G--0--2--5------4--2----4--5--4---------2---
D--------------------------------------------------
A--------------------------------------------------
E--------------------------------------------------


E--0--5--3--3--2--0-------5--8----7---8-
B-------------------------3---6--10--8---10
G--0--5--4--4--2--0--2---5-------------9-
D-----------------------------------------------
A-----------------------------------------------
E-----------------------------------------------


E--10--12---10---3---5----5---
B--12--13---10---5---------5---
G--------12---11---5--------5---
D------------------------------------
A------------------------------------
E-------------------------------------
Vlogger of the day:

KSI

"I had no clue on what I wanted to do when I was younger, so I was pretty lucky with this YouTube thing.” Olajide "JJ" Olatunji (born 19 June 1993), better known by his online pseudonym, KSI, is an...

read more

  • Comments
  • Related videos